Join Us |Sign In | User Guide | Inquiry Cart
Years

Hanker International Group(China)Co.,Ltd

Cement, Scientific Instrument, Chemicals, Incubator, cement clinker, Manufacturer and Supplier - China

HomeProductsCompany ProfileCertificatesNewsInquiry

Disclaimer

This company is a Free member of AsianProducts.
If you end up wanting to buy anything from this supplier, we strongly suggest you to use our Escrow service EZ Order. This will ensure a 100% safe transaction.

Information for Buyer

  • Hanker International Group(China)Co.,Ltd
  • Target Markets: USA,Middle East,Russia,Europe,etc.
  • Business Type: Importer, Exporter
  • OEM Service: No
  • Register Time: 2009-11-11

  • (, China) Map
  • Phone: +86 /532-55579570
  • Contact Person: lily

Products Detail

beaker (20201)

  • Business Information:
  • Made In : China(CN)

Product Feature:

20201 Beakers Griffin,low form,double scale,graduated ISO 3819 *Non-ISO size ,hige quality and low price.Please contact with us hanker at hankergroup.net.

Product Specifications:

Cat.No---- Capac.ml----- Grad.range ml -----O.D*Height.mm ------Grad. Interval ml
20201-5---- ---5------------------( - )---------22*30-------------------( - )
20201-10 -----10 ------------------4-8 ---------26*35----- ---------------4
20201-20 -----20 -----------------10-15 --------32*43 --------------------5
20201-25 -----25 -----------------10-15 --------34*50----- ---------------5
20201-50-- ---50---- -------------10-40---- ----42*60-------------------- 5
20201-100----100------------------20-80 --------60*70 --------------------10
20201-150----150-- ---------------20-140 -------60*80 --------------------10
20201-200-- -200-- ---------------25-175------- 66*90 --------------------10
20201-250--- 250----------------- 25-200------- 70*95---------------------25
20201-300----300------------------25-250------- 74*105 -------------------25
20201-400----400------------------50-350------- 80*110--------------------25
20201-500----500------------------50-400------- 85*120--------------------25
20201-600----600----------------- 100-500-------90*125--------------------50
20201-800----800-- ---------------100-750 ------100*135--- ---------------50
20201-1L----1000------------------100-900-- ----105*145-------------------50
20201-2L----2000------------------200-1800------130*185-------------------100
20201-3L----3000----------------- 300-2800------150*210-------------------100
20201-4L----4000------------------500-3500------161*253-------------------500
20201-5L----5000------------------500-4500------170*270-------------------500

FacebookTwitterLinkedinAdd to my favorite Print this pageForward this page
Hanker International Group(China)Co.,Ltd GoHomeProduct ShowroomCompany ProfileNewsInquiryRank (0)